ISO-10303-21;
HEADER;
FILE_DESCRIPTION (( 'STEP AP203' ),
    '1' );
FILE_NAME ('QM-AAQWP-20-650-1100-M.STEP',
    '2021-01-05T02:43:20',
    ( '' ),
    ( '' ),
    'SwSTEP 2.0',
    'SolidWorks 2020',
    '' );
FILE_SCHEMA (( 'CONFIG_CONTROL_DESIGN' ));
ENDSEC;

DATA;
#1 = FACE_OUTER_BOUND ( 'NONE', #138, .T. ) ;
#2 = AXIS2_PLACEMENT_3D ( 'NONE', #122, #47, #4 ) ;
#3 = DATE_TIME_ROLE ( 'classification_date' ) ;
#4 = DIRECTION ( 'NONE',  ( 0.000000000000000000, 0.000000000000000000, 1.000000000000000000 ) ) ;
#5 = CYLINDRICAL_SURFACE ( 'NONE', #2, 12.69999999999999929 ) ;
#6 = DIRECTION ( 'NONE',  ( 0.000000000000000000, 0.000000000000000000, 1.000000000000000000 ) ) ;
#7 = PRODUCT_DEFINITION ( 'UNKNOWN', '', #148, #195 ) ;
#8 = LOCAL_TIME ( 10, 43, 20.00000000000000000, #18 ) ;
#9 = DIRECTION ( 'NONE',  ( 0.000000000000000000, 0.000000000000000000, 1.000000000000000000 ) ) ;
#10 = ORIENTED_EDGE ( 'NONE', *, *, #284, .F. ) ;
#11 = ORIENTED_EDGE ( 'NONE', *, *, #322, .T. ) ;
#12 = ORIENTED_EDGE ( 'NONE', *, *, #187, .T. ) ;
#13 = EDGE_CURVE ( 'NONE', #210, #159, #314, .T. ) ;
#14 = DIRECTION ( 'NONE',  ( 0.000000000000000000, 0.000000000000000000, 1.000000000000000000 ) ) ;
#15 = CYLINDRICAL_SURFACE ( 'NONE', #61, 12.69999999999999929 ) ;
#16 = DIRECTION ( 'NONE',  ( 0.000000000000000000, 0.000000000000000000, 1.000000000000000000 ) ) ;
#17 = ADVANCED_FACE ( 'NONE', ( #166 ), #275, .F. ) ;
#18 = COORDINATED_UNIVERSAL_TIME_OFFSET ( 8, 0, .AHEAD. ) ;
#19 = CARTESIAN_POINT ( 'NONE',  ( -0.5000000000000006661, 0.000000000000000000, 0.000000000000000000 ) ) ;
#20 = APPROVAL_DATE_TIME ( #281, #49 ) ;
#21 = AXIS2_PLACEMENT_3D ( 'NONE', #311, #76, #258 ) ;
#22 = DATE_AND_TIME ( #168, #161 ) ;
#23 = DIRECTION ( 'NONE',  ( 0.000000000000000000, 0.000000000000000000, -1.000000000000000000 ) ) ;
#24 = PERSON_AND_ORGANIZATION_ROLE ( 'design_owner' ) ;
#25 = DIRECTION ( 'NONE',  ( -1.000000000000000000, -0.000000000000000000, -0.000000000000000000 ) ) ;
#26 = CALENDAR_DATE ( 2021, 5, 1 ) ;
#27 = FACE_BOUND ( 'NONE', #56, .T. ) ;
#28 = CIRCLE ( 'NONE', #53, 12.69999999999999929 ) ;
#29 = DIRECTION ( 'NONE',  ( -1.000000000000000000, -0.000000000000000000, -0.000000000000000000 ) ) ;
#30 = CARTESIAN_POINT ( 'NONE',  ( 0.000000000000000000, 0.000000000000000000, 0.000000000000000000 ) ) ;
#31 = CC_DESIGN_APPROVAL ( #318, ( #148 ) ) ;
#32 = DIRECTION ( 'NONE',  ( 1.000000000000000000, 0.000000000000000000, 0.000000000000000000 ) ) ;
#33 = EDGE_LOOP ( 'NONE', ( #249, #182, #292, #36 ) ) ;
#34 = ORIENTED_EDGE ( 'NONE', *, *, #263, .T. ) ;
#35 = EDGE_CURVE ( 'NONE', #87, #241, #287, .T. ) ;
#36 = ORIENTED_EDGE ( 'NONE', *, *, #95, .F. ) ;
#37 = AXIS2_PLACEMENT_3D ( 'NONE', #230, #307, #335 ) ;
#38 = ORIENTED_EDGE ( 'NONE', *, *, #274, .T. ) ;
#39 = APPROVAL ( #259, 'UNSPECIFIED' ) ;
#40 = DIRECTION ( 'NONE',  ( -1.000000000000000000, -0.000000000000000000, -0.000000000000000000 ) ) ;
#41 = FACE_OUTER_BOUND ( 'NONE', #110, .T. ) ;
#42 = DIRECTION ( 'NONE',  ( 0.000000000000000000, 0.000000000000000000, 1.000000000000000000 ) ) ;
#43 = LINE ( 'NONE', #144, #204 ) ;
#44 = DIRECTION ( 'NONE',  ( -1.000000000000000000, -0.000000000000000000, -0.000000000000000000 ) ) ;
#45 = CALENDAR_DATE ( 2021, 5, 1 ) ;
#46 = AXIS2_PLACEMENT_3D ( 'NONE', #19, #302, #220 ) ;
#47 = DIRECTION ( 'NONE',  ( -1.000000000000000000, -0.000000000000000000, -0.000000000000000000 ) ) ;
#48 = PERSON_AND_ORGANIZATION_ROLE ( 'creator' ) ;
#49 = APPROVAL ( #223, 'UNSPECIFIED' ) ;
#50 = APPROVAL_ROLE ( '' ) ;
#51 = PERSON_AND_ORGANIZATION ( #129, #325 ) ;
#52 = CARTESIAN_POINT ( 'NONE',  ( 3.000000000000000000, 0.000000000000000000, 0.000000000000000000 ) ) ;
#53 = AXIS2_PLACEMENT_3D ( 'NONE', #105, #80, #319 ) ;
#54 = PLANE ( 'NONE',  #37 ) ;
#55 = CARTESIAN_POINT ( 'NONE',  ( -3.000000000000000000, 1.224646799147353256E-15, -10.00000000000000000 ) ) ;
#56 = EDGE_LOOP ( 'NONE', ( #84, #320 ) ) ;
#57 = AXIS2_PLACEMENT_3D ( 'NONE', #299, #243, #272 ) ;
#58 = AXIS2_PLACEMENT_3D ( 'NONE', #260, #127, #23 ) ;
#59 = EDGE_LOOP ( 'NONE', ( #60, #321, #238, #267 ) ) ;
#60 = ORIENTED_EDGE ( 'NONE', *, *, #250, .F. ) ;
#61 = AXIS2_PLACEMENT_3D ( 'NONE', #91, #139, #16 ) ;
#62 = ADVANCED_FACE ( 'NONE', ( #190 ), #68, .F. ) ;
#63 = CIRCLE ( 'NONE', #186, 12.69999999999999929 ) ;
#64 = CARTESIAN_POINT ( 'NONE',  ( 0.5000000000000013323, 0.000000000000000000, 0.000000000000000000 ) ) ;
#65 = DIRECTION ( 'NONE',  ( 0.000000000000000000, 0.000000000000000000, 1.000000000000000000 ) ) ;
#66 = CARTESIAN_POINT ( 'NONE',  ( -1.614212418857619014, 0.000000000000000000, 12.69999999999999929 ) ) ;
#67 = DATE_AND_TIME ( #26, #8 ) ;
#68 = CYLINDRICAL_SURFACE ( 'NONE', #88, 10.00000000000000000 ) ;
#69 = EDGE_CURVE ( 'NONE', #159, #297, #251, .T. ) ;
#70 = APPROVAL_ROLE ( '' ) ;
#71 = DIRECTION ( 'NONE',  ( 1.000000000000000000, 0.000000000000000000, 0.000000000000000000 ) ) ;
#72 = PRODUCT_RELATED_PRODUCT_CATEGORY ( 'detail', '', ( #312 ) ) ;
#73 = COORDINATED_UNIVERSAL_TIME_OFFSET ( 8, 0, .AHEAD. ) ;
#74 = DIRECTION ( 'NONE',  ( 0.000000000000000000, 0.000000000000000000, 1.000000000000000000 ) ) ;
#75 = APPROVAL_DATE_TIME ( #93, #39 ) ;
#76 = DIRECTION ( 'NONE',  ( -1.000000000000000000, -0.000000000000000000, -0.000000000000000000 ) ) ;
#77 = DIRECTION ( 'NONE',  ( -0.000000000000000000, 0.000000000000000000, 1.000000000000000000 ) ) ;
#78 = CYLINDRICAL_SURFACE ( 'NONE', #89, 10.00000000000000000 ) ;
#79 = AXIS2_PLACEMENT_3D ( 'NONE', #149, #205, #286 ) ;
#80 = DIRECTION ( 'NONE',  ( -1.000000000000000000, -0.000000000000000000, -0.000000000000000000 ) ) ;
#81 = ORIENTED_EDGE ( 'NONE', *, *, #69, .F. ) ;
#82 =( NAMED_UNIT ( * ) PLANE_ANGLE_UNIT ( ) SI_UNIT ( $, .RADIAN. ) );
#83 = ORIENTED_EDGE ( 'NONE', *, *, #158, .T. ) ;
#84 = ORIENTED_EDGE ( 'NONE', *, *, #97, .F. ) ;
#85 = AXIS2_PLACEMENT_3D ( 'NONE', #181, #109, #6 ) ;
#86 = ORIENTED_EDGE ( 'NONE', *, *, #35, .F. ) ;
#87 = VERTEX_POINT ( 'NONE', #118 ) ;
#88 = AXIS2_PLACEMENT_3D ( 'NONE', #253, #44, #14 ) ;
#89 = AXIS2_PLACEMENT_3D ( 'NONE', #306, #157, #74 ) ;
#90 = DIRECTION ( 'NONE',  ( -1.000000000000000000, -0.000000000000000000, -0.000000000000000000 ) ) ;
#91 = CARTESIAN_POINT ( 'NONE',  ( -1.614212418857619014, 0.000000000000000000, 0.000000000000000000 ) ) ;
#92 = ORIENTED_EDGE ( 'NONE', *, *, #284, .T. ) ;
#93 = DATE_AND_TIME ( #101, #288 ) ;
#94 = AXIS2_PLACEMENT_3D ( 'NONE', #227, #155, #77 ) ;
#95 = EDGE_CURVE ( 'NONE', #210, #214, #329, .T. ) ;
#96 = DIRECTION ( 'NONE',  ( -1.000000000000000000, -0.000000000000000000, -0.000000000000000000 ) ) ;
#97 = EDGE_CURVE ( 'NONE', #214, #297, #218, .T. ) ;
#98 = APPROVAL_ROLE ( '' ) ;
#99 = PLANE ( 'NONE',  #100 ) ;
#100 = AXIS2_PLACEMENT_3D ( 'NONE', #179, #71, #264 ) ;
#101 = CALENDAR_DATE ( 2021, 5, 1 ) ;
#102 = DIRECTION ( 'NONE',  ( 0.000000000000000000, 0.000000000000000000, 1.000000000000000000 ) ) ;
#103 = FACE_OUTER_BOUND ( 'NONE', #188, .T. ) ;
#104 = ADVANCED_FACE ( 'NONE', ( #273 ), #217, .F. ) ;
#105 = CARTESIAN_POINT ( 'NONE',  ( 3.000000000000000000, 0.000000000000000000, 0.000000000000000000 ) ) ;
#106 = AXIS2_PLACEMENT_3D ( 'NONE', #52, #96, #107 ) ;
#107 = DIRECTION ( 'NONE',  ( 0.000000000000000000, 0.000000000000000000, 1.000000000000000000 ) ) ;
#108 = EDGE_LOOP ( 'NONE', ( #270, #266, #146, #92 ) ) ;
#109 = DIRECTION ( 'NONE',  ( -1.000000000000000000, -0.000000000000000000, -0.000000000000000000 ) ) ;
#110 = EDGE_LOOP ( 'NONE', ( #246, #11, #83, #295 ) ) ;
#111 = CIRCLE ( 'NONE', #303, 10.00000000000000000 ) ;
#112 = CIRCLE ( 'NONE', #21, 12.69999999999999929 ) ;
#113 = CC_DESIGN_PERSON_AND_ORGANIZATION_ASSIGNMENT ( #145, #24, ( #312 ) ) ;
#114 = DIRECTION ( 'NONE',  ( -1.000000000000000000, -0.000000000000000000, -0.000000000000000000 ) ) ;
#115 = APPROVAL_PERSON_ORGANIZATION ( #120, #49, #98 ) ;
#116 = DIRECTION ( 'NONE',  ( -1.000000000000000000, 0.000000000000000000, -0.000000000000000000 ) ) ;
#117 = DIRECTION ( 'NONE',  ( -1.000000000000000000, -0.000000000000000000, -0.000000000000000000 ) ) ;
#118 = CARTESIAN_POINT ( 'NONE',  ( 0.5000000000000013323, 1.224646799147353256E-15, -10.00000000000000000 ) ) ;
#119 = CLOSED_SHELL ( 'NONE', ( #221, #17, #62, #104, #184, #235, #208, #156, #215, #278 ) ) ;
#120 = PERSON_AND_ORGANIZATION ( #129, #325 ) ;
#121 = APPROVAL_PERSON_ORGANIZATION ( #252, #39, #70 ) ;
#122 = CARTESIAN_POINT ( 'NONE',  ( -1.614212418857619014, 0.000000000000000000, 0.000000000000000000 ) ) ;
#123 = CARTESIAN_POINT ( 'NONE',  ( -3.000000000000000000, 0.000000000000000000, 10.00000000000000000 ) ) ;
#124 = DIRECTION ( 'NONE',  ( -1.000000000000000000, -0.000000000000000000, -0.000000000000000000 ) ) ;
#125 = CC_DESIGN_APPROVAL ( #39, ( #7 ) ) ;
#126 = EDGE_CURVE ( 'NONE', #317, #87, #301, .T. ) ;
#127 = DIRECTION ( 'NONE',  ( 1.000000000000000000, 0.000000000000000000, 0.000000000000000000 ) ) ;
#128 = APPLICATION_CONTEXT ( 'configuration controlled 3d designs of mechanical parts and assemblies' ) ;
#129 = PERSON ( 'UNSPECIFIED', 'UNSPECIFIED', 'UNSPECIFIED', ('UNSPECIFIED'), ('UNSPECIFIED'), ('UNSPECIFIED') ) ;
#130 = VECTOR ( 'NONE', #117, 1000.000000000000000 ) ;
#131 = ORIENTED_EDGE ( 'NONE', *, *, #298, .T. ) ;
#132 =( LENGTH_UNIT ( ) NAMED_UNIT ( * ) SI_UNIT ( .MILLI., .METRE. ) );
#133 = ORIENTED_EDGE ( 'NONE', *, *, #274, .F. ) ;
#134 = PRODUCT_DEFINITION_SHAPE ( 'NONE', 'NONE',  #7 ) ;
#135 = ORIENTED_EDGE ( 'NONE', *, *, #187, .F. ) ;
#136 = EDGE_CURVE ( 'NONE', #297, #214, #111, .T. ) ;
#137 = VERTEX_POINT ( 'NONE', #170 ) ;
#138 = EDGE_LOOP ( 'NONE', ( #291, #160, #133, #296 ) ) ;
#139 = DIRECTION ( 'NONE',  ( -1.000000000000000000, -0.000000000000000000, -0.000000000000000000 ) ) ;
#140 = CC_DESIGN_DATE_AND_TIME_ASSIGNMENT ( #22, #3, ( #219 ) ) ;
#141 = UNCERTAINTY_MEASURE_WITH_UNIT (LENGTH_MEASURE( 1.000000000000000082E-05 ), #132, 'distance_accuracy_value', 'NONE');
#142 = CC_DESIGN_SECURITY_CLASSIFICATION ( #219, ( #148 ) ) ;
#143 = DIRECTION ( 'NONE',  ( -0.000000000000000000, 0.000000000000000000, 1.000000000000000000 ) ) ;
#144 = CARTESIAN_POINT ( 'NONE',  ( -1.614212418857619014, 0.000000000000000000, 10.00000000000000000 ) ) ;
#145 = PERSON_AND_ORGANIZATION ( #129, #325 ) ;
#146 = ORIENTED_EDGE ( 'NONE', *, *, #163, .T. ) ;
#147 = PERSON_AND_ORGANIZATION ( #129, #325 ) ;
#148 = PRODUCT_DEFINITION_FORMATION_WITH_SPECIFIED_SOURCE ( 'ANY', '', #312, .NOT_KNOWN. ) ;
#149 = CARTESIAN_POINT ( 'NONE',  ( 0.5000000000000013323, 0.000000000000000000, 0.000000000000000000 ) ) ;
#150 = PERSON_AND_ORGANIZATION_ROLE ( 'design_supplier' ) ;
#151 = PLANE ( 'NONE',  #94 ) ;
#152 = PERSON_AND_ORGANIZATION_ROLE ( 'creator' ) ;
#153 = DIRECTION ( 'NONE',  ( 0.000000000000000000, 0.000000000000000000, 1.000000000000000000 ) ) ;
#154 = APPROVAL_STATUS ( 'not_yet_approved' ) ;
#155 = DIRECTION ( 'NONE',  ( -1.000000000000000000, 0.000000000000000000, -0.000000000000000000 ) ) ;
#156 = ADVANCED_FACE ( 'NONE', ( #41 ), #15, .T. ) ;
#157 = DIRECTION ( 'NONE',  ( -1.000000000000000000, -0.000000000000000000, -0.000000000000000000 ) ) ;
#158 = EDGE_CURVE ( 'NONE', #137, #183, #222, .T. ) ;
#159 = VERTEX_POINT ( 'NONE', #167 ) ;
#160 = ORIENTED_EDGE ( 'NONE', *, *, #228, .T. ) ;
#161 = LOCAL_TIME ( 10, 43, 20.00000000000000000, #257 ) ;
#162 = VERTEX_POINT ( 'NONE', #276 ) ;
#163 = EDGE_CURVE ( 'NONE', #162, #241, #43, .T. ) ;
#164 = EDGE_LOOP ( 'NONE', ( #332, #189 ) ) ;
#165 = CARTESIAN_POINT ( 'NONE',  ( -1.614212418857619014, 0.000000000000000000, 10.00000000000000000 ) ) ;
#166 = FACE_OUTER_BOUND ( 'NONE', #33, .T. ) ;
#167 = CARTESIAN_POINT ( 'NONE',  ( -0.5000000000000006661, 1.224646799147353256E-15, -10.00000000000000000 ) ) ;
#168 = CALENDAR_DATE ( 2021, 5, 1 ) ;
#169 = MANIFOLD_SOLID_BREP ( 'Ðý×', #119 ) ;
#170 = CARTESIAN_POINT ( 'NONE',  ( 3.000000000000000000, 0.000000000000000000, 12.69999999999999929 ) ) ;
#171 = APPROVAL_DATE_TIME ( #67, #318 ) ;
#172 = CYLINDRICAL_SURFACE ( 'NONE', #175, 10.00000000000000000 ) ;
#173 = SECURITY_CLASSIFICATION_LEVEL ( 'unclassified' ) ;
#174 = APPROVAL_PERSON_ORGANIZATION ( #51, #318, #50 ) ;
#175 = AXIS2_PLACEMENT_3D ( 'NONE', #202, #25, #153 ) ;
#176 = CARTESIAN_POINT ( 'NONE',  ( 2.999999999999999112, 0.000000000000000000, 0.000000000000000000 ) ) ;
#177 = CARTESIAN_POINT ( 'NONE',  ( 3.000000000000000000, 1.555301434917138433E-15, -12.69999999999999929 ) ) ;
#178 = COORDINATED_UNIVERSAL_TIME_OFFSET ( 8, 0, .AHEAD. ) ;
#179 = CARTESIAN_POINT ( 'NONE',  ( -0.5000000000000006661, 10.00000000000000000, 0.000000000000000000 ) ) ;
#180 = CARTESIAN_POINT ( 'NONE',  ( -3.000000000000000000, 0.000000000000000000, 12.69999999999999929 ) ) ;
#181 = CARTESIAN_POINT ( 'NONE',  ( 2.999999999999999112, 0.000000000000000000, 0.000000000000000000 ) ) ;
#182 = ORIENTED_EDGE ( 'NONE', *, *, #69, .T. ) ;
#183 = VERTEX_POINT ( 'NONE', #180 ) ;
#184 = ADVANCED_FACE ( 'NONE', ( #255 ), #172, .F. ) ;
#185 = ORIENTED_EDGE ( 'NONE', *, *, #250, .T. ) ;
#186 = AXIS2_PLACEMENT_3D ( 'NONE', #206, #282, #102 ) ;
#187 = EDGE_CURVE ( 'NONE', #159, #210, #196, .T. ) ;
#188 = EDGE_LOOP ( 'NONE', ( #81, #12, #324, #242 ) ) ;
#189 = ORIENTED_EDGE ( 'NONE', *, *, #322, .F. ) ;
#190 = FACE_OUTER_BOUND ( 'NONE', #59, .T. ) ;
#191 = CC_DESIGN_PERSON_AND_ORGANIZATION_ASSIGNMENT ( #147, #232, ( #219 ) ) ;
#192 = CARTESIAN_POINT ( 'NONE',  ( -3.000000000000000000, 0.000000000000000000, 0.000000000000000000 ) ) ;
#193 = DIRECTION ( 'NONE',  ( -1.000000000000000000, -0.000000000000000000, -0.000000000000000000 ) ) ;
#194 = CARTESIAN_POINT ( 'NONE',  ( -1.614212418857619014, 1.224646799147353256E-15, -10.00000000000000000 ) ) ;
#195 = DESIGN_CONTEXT ( 'detailed design', #128, 'design' ) ;
#196 = CIRCLE ( 'NONE', #58, 10.00000000000000000 ) ;
#197 = PERSON_AND_ORGANIZATION ( #129, #325 ) ;
#198 = VERTEX_POINT ( 'NONE', #177 ) ;
#199 = PERSON_AND_ORGANIZATION ( #129, #325 ) ;
#200 = CARTESIAN_POINT ( 'NONE',  ( -0.5000000000000006661, 0.000000000000000000, 10.00000000000000000 ) ) ;
#201 = CALENDAR_DATE ( 2021, 5, 1 ) ;
#202 = CARTESIAN_POINT ( 'NONE',  ( -1.614212418857619014, 0.000000000000000000, 0.000000000000000000 ) ) ;
#203 = CC_DESIGN_PERSON_AND_ORGANIZATION_ASSIGNMENT ( #305, #150, ( #148 ) ) ;
#204 = VECTOR ( 'NONE', #262, 1000.000000000000000 ) ;
#205 = DIRECTION ( 'NONE',  ( -1.000000000000000000, -0.000000000000000000, -0.000000000000000000 ) ) ;
#206 = CARTESIAN_POINT ( 'NONE',  ( -3.000000000000000000, 0.000000000000000000, 0.000000000000000000 ) ) ;
#207 = FACE_OUTER_BOUND ( 'NONE', #216, .T. ) ;
#208 = ADVANCED_FACE ( 'NONE', ( #27, #279 ), #54, .F. ) ;
#209 = CARTESIAN_POINT ( 'NONE',  ( 2.999999999999999112, 1.224646799147353256E-15, -10.00000000000000000 ) ) ;
#210 = VERTEX_POINT ( 'NONE', #200 ) ;
#211 = EDGE_LOOP ( 'NONE', ( #10, #86 ) ) ;
#212 = VECTOR ( 'NONE', #193, 1000.000000000000000 ) ;
#213 = VERTEX_POINT ( 'NONE', #234 ) ;
#214 = VERTEX_POINT ( 'NONE', #123 ) ;
#215 = ADVANCED_FACE ( 'NONE', ( #313, #231 ), #151, .F. ) ;
#216 = EDGE_LOOP ( 'NONE', ( #268, #135 ) ) ;
#217 = PLANE ( 'NONE',  #245 ) ;
#218 = CIRCLE ( 'NONE', #247, 10.00000000000000000 ) ;
#219 = SECURITY_CLASSIFICATION ( '', '', #173 ) ;
#220 = DIRECTION ( 'NONE',  ( 0.000000000000000000, 0.000000000000000000, -1.000000000000000000 ) ) ;
#221 = ADVANCED_FACE ( 'NONE', ( #1 ), #5, .T. ) ;
#222 = LINE ( 'NONE', #66, #269 ) ;
#223 = APPROVAL_STATUS ( 'not_yet_approved' ) ;
#224 = DIRECTION ( 'NONE',  ( 0.000000000000000000, 0.000000000000000000, 1.000000000000000000 ) ) ;
#225 = AXIS2_PLACEMENT_3D ( 'NONE', #64, #114, #42 ) ;
#226 = SHAPE_DEFINITION_REPRESENTATION ( #134, #330 ) ;
#227 = CARTESIAN_POINT ( 'NONE',  ( 2.999999999999999556, 12.69999999999999929, 0.000000000000000000 ) ) ;
#228 = EDGE_CURVE ( 'NONE', #198, #213, #334, .T. ) ;
#229 = COORDINATED_UNIVERSAL_TIME_OFFSET ( 8, 0, .AHEAD. ) ;
#230 = CARTESIAN_POINT ( 'NONE',  ( -3.000000000000000000, 10.00000000000000000, 0.000000000000000000 ) ) ;
#231 = FACE_BOUND ( 'NONE', #240, .T. ) ;
#232 = PERSON_AND_ORGANIZATION_ROLE ( 'classification_officer' ) ;
#233 = DIRECTION ( 'NONE',  ( 0.000000000000000000, 0.000000000000000000, 1.000000000000000000 ) ) ;
#234 = CARTESIAN_POINT ( 'NONE',  ( -3.000000000000000000, 1.555301434917138433E-15, -12.69999999999999929 ) ) ;
#235 = ADVANCED_FACE ( 'NONE', ( #103 ), #78, .F. ) ;
#236 =( NAMED_UNIT ( * ) SI_UNIT ( $, .STERADIAN. ) SOLID_ANGLE_UNIT ( ) );
#237 = CIRCLE ( 'NONE', #85, 10.00000000000000000 ) ;
#238 = ORIENTED_EDGE ( 'NONE', *, *, #35, .T. ) ;
#239 = APPLICATION_PROTOCOL_DEFINITION ( 'international standard', 'config_control_design', 1994, #244 ) ;
#240 = EDGE_LOOP ( 'NONE', ( #131, #185 ) ) ;
#241 = VERTEX_POINT ( 'NONE', #310 ) ;
#242 = ORIENTED_EDGE ( 'NONE', *, *, #97, .T. ) ;
#243 = DIRECTION ( 'NONE',  ( -1.000000000000000000, -0.000000000000000000, -0.000000000000000000 ) ) ;
#244 = APPLICATION_CONTEXT ( 'configuration controlled 3d designs of mechanical parts and assemblies' ) ;
#245 = AXIS2_PLACEMENT_3D ( 'NONE', #300, #116, #143 ) ;
#246 = ORIENTED_EDGE ( 'NONE', *, *, #228, .F. ) ;
#247 = AXIS2_PLACEMENT_3D ( 'NONE', #192, #304, #224 ) ;
#248 = VECTOR ( 'NONE', #29, 1000.000000000000000 ) ;
#249 = ORIENTED_EDGE ( 'NONE', *, *, #13, .T. ) ;
#250 = EDGE_CURVE ( 'NONE', #317, #162, #308, .T. ) ;
#251 = LINE ( 'NONE', #194, #130 ) ;
#252 = PERSON_AND_ORGANIZATION ( #129, #325 ) ;
#253 = CARTESIAN_POINT ( 'NONE',  ( -1.614212418857619014, 0.000000000000000000, 0.000000000000000000 ) ) ;
#254 = CIRCLE ( 'NONE', #79, 10.00000000000000000 ) ;
#255 = FACE_OUTER_BOUND ( 'NONE', #108, .T. ) ;
#256 = CC_DESIGN_PERSON_AND_ORGANIZATION_ASSIGNMENT ( #197, #152, ( #148 ) ) ;
#257 = COORDINATED_UNIVERSAL_TIME_OFFSET ( 8, 0, .AHEAD. ) ;
#258 = DIRECTION ( 'NONE',  ( 0.000000000000000000, 0.000000000000000000, 1.000000000000000000 ) ) ;
#259 = APPROVAL_STATUS ( 'not_yet_approved' ) ;
#260 = CARTESIAN_POINT ( 'NONE',  ( -0.5000000000000006661, 0.000000000000000000, 0.000000000000000000 ) ) ;
#261 = AXIS2_PLACEMENT_3D ( 'NONE', #176, #124, #233 ) ;
#262 = DIRECTION ( 'NONE',  ( -1.000000000000000000, -0.000000000000000000, -0.000000000000000000 ) ) ;
#263 = EDGE_CURVE ( 'NONE', #213, #183, #63, .T. ) ;
#264 = DIRECTION ( 'NONE',  ( 0.000000000000000000, 0.000000000000000000, -1.000000000000000000 ) ) ;
#265 = CC_DESIGN_DATE_AND_TIME_ASSIGNMENT ( #309, #285, ( #7 ) ) ;
#266 = ORIENTED_EDGE ( 'NONE', *, *, #298, .F. ) ;
#267 = ORIENTED_EDGE ( 'NONE', *, *, #163, .F. ) ;
#268 = ORIENTED_EDGE ( 'NONE', *, *, #13, .F. ) ;
#269 = VECTOR ( 'NONE', #277, 1000.000000000000000 ) ;
#270 = ORIENTED_EDGE ( 'NONE', *, *, #126, .F. ) ;
#271 =( GEOMETRIC_REPRESENTATION_CONTEXT ( 3 ) GLOBAL_UNCERTAINTY_ASSIGNED_CONTEXT ( ( #141 ) ) GLOBAL_UNIT_ASSIGNED_CONTEXT ( ( #132, #82, #236 ) ) REPRESENTATION_CONTEXT ( 'NONE', 'WORKASPACE' ) );
#272 = DIRECTION ( 'NONE',  ( 0.000000000000000000, 0.000000000000000000, 1.000000000000000000 ) ) ;
#273 = FACE_OUTER_BOUND ( 'NONE', #211, .T. ) ;
#274 = EDGE_CURVE ( 'NONE', #183, #213, #112, .T. ) ;
#275 = CYLINDRICAL_SURFACE ( 'NONE', #57, 10.00000000000000000 ) ;
#276 = CARTESIAN_POINT ( 'NONE',  ( 2.999999999999999112, 0.000000000000000000, 10.00000000000000000 ) ) ;
#277 = DIRECTION ( 'NONE',  ( -1.000000000000000000, -0.000000000000000000, -0.000000000000000000 ) ) ;
#278 = ADVANCED_FACE ( 'NONE', ( #207 ), #99, .F. ) ;
#279 = FACE_OUTER_BOUND ( 'NONE', #323, .T. ) ;
#280 = AXIS2_PLACEMENT_3D ( 'NONE', #30, #9, #32 ) ;
#281 = DATE_AND_TIME ( #201, #294 ) ;
#282 = DIRECTION ( 'NONE',  ( -1.000000000000000000, -0.000000000000000000, -0.000000000000000000 ) ) ;
#283 = APPLICATION_PROTOCOL_DEFINITION ( 'international standard', 'config_control_design', 1994, #128 ) ;
#284 = EDGE_CURVE ( 'NONE', #241, #87, #254, .T. ) ;
#285 = DATE_TIME_ROLE ( 'creation_date' ) ;
#286 = DIRECTION ( 'NONE',  ( 0.000000000000000000, 0.000000000000000000, 1.000000000000000000 ) ) ;
#287 = CIRCLE ( 'NONE', #225, 10.00000000000000000 ) ;
#288 = LOCAL_TIME ( 10, 43, 20.00000000000000000, #178 ) ;
#289 = CARTESIAN_POINT ( 'NONE',  ( -1.614212418857619014, 1.555301434917138433E-15, -12.69999999999999929 ) ) ;
#290 = EDGE_CURVE ( 'NONE', #137, #198, #293, .T. ) ;
#291 = ORIENTED_EDGE ( 'NONE', *, *, #290, .T. ) ;
#292 = ORIENTED_EDGE ( 'NONE', *, *, #136, .T. ) ;
#293 = CIRCLE ( 'NONE', #106, 12.69999999999999929 ) ;
#294 = LOCAL_TIME ( 10, 43, 20.00000000000000000, #229 ) ;
#295 = ORIENTED_EDGE ( 'NONE', *, *, #263, .F. ) ;
#296 = ORIENTED_EDGE ( 'NONE', *, *, #158, .F. ) ;
#297 = VERTEX_POINT ( 'NONE', #55 ) ;
#298 = EDGE_CURVE ( 'NONE', #162, #317, #237, .T. ) ;
#299 = CARTESIAN_POINT ( 'NONE',  ( -1.614212418857619014, 0.000000000000000000, 0.000000000000000000 ) ) ;
#300 = CARTESIAN_POINT ( 'NONE',  ( 0.5000000000000006661, 10.00000000000000000, 0.000000000000000000 ) ) ;
#301 = LINE ( 'NONE', #326, #212 ) ;
#302 = DIRECTION ( 'NONE',  ( 1.000000000000000000, 0.000000000000000000, 0.000000000000000000 ) ) ;
#303 = AXIS2_PLACEMENT_3D ( 'NONE', #328, #90, #65 ) ;
#304 = DIRECTION ( 'NONE',  ( -1.000000000000000000, -0.000000000000000000, -0.000000000000000000 ) ) ;
#305 = PERSON_AND_ORGANIZATION ( #129, #325 ) ;
#306 = CARTESIAN_POINT ( 'NONE',  ( -1.614212418857619014, 0.000000000000000000, 0.000000000000000000 ) ) ;
#307 = DIRECTION ( 'NONE',  ( 1.000000000000000000, 0.000000000000000000, 0.000000000000000000 ) ) ;
#308 = CIRCLE ( 'NONE', #261, 10.00000000000000000 ) ;
#309 = DATE_AND_TIME ( #45, #315 ) ;
#310 = CARTESIAN_POINT ( 'NONE',  ( 0.5000000000000013323, 0.000000000000000000, 10.00000000000000000 ) ) ;
#311 = CARTESIAN_POINT ( 'NONE',  ( -3.000000000000000000, 0.000000000000000000, 0.000000000000000000 ) ) ;
#312 = PRODUCT ( 'QM-AAQWP-20-650-1100-M', 'QM-AAQWP-20-650-1100-M', '', ( #316 ) ) ;
#313 = FACE_OUTER_BOUND ( 'NONE', #164, .T. ) ;
#314 = CIRCLE ( 'NONE', #46, 10.00000000000000000 ) ;
#315 = LOCAL_TIME ( 10, 43, 20.00000000000000000, #73 ) ;
#316 = MECHANICAL_CONTEXT ( 'NONE', #244, 'mechanical' ) ;
#317 = VERTEX_POINT ( 'NONE', #209 ) ;
#318 = APPROVAL ( #154, 'UNSPECIFIED' ) ;
#319 = DIRECTION ( 'NONE',  ( 0.000000000000000000, 0.000000000000000000, 1.000000000000000000 ) ) ;
#320 = ORIENTED_EDGE ( 'NONE', *, *, #136, .F. ) ;
#321 = ORIENTED_EDGE ( 'NONE', *, *, #126, .T. ) ;
#322 = EDGE_CURVE ( 'NONE', #198, #137, #28, .T. ) ;
#323 = EDGE_LOOP ( 'NONE', ( #38, #34 ) ) ;
#324 = ORIENTED_EDGE ( 'NONE', *, *, #95, .T. ) ;
#325 = ORGANIZATION ( 'UNSPECIFIED', 'UNSPECIFIED', '' ) ;
#326 = CARTESIAN_POINT ( 'NONE',  ( -1.614212418857619014, 1.224646799147353256E-15, -10.00000000000000000 ) ) ;
#327 = CC_DESIGN_PERSON_AND_ORGANIZATION_ASSIGNMENT ( #199, #48, ( #7 ) ) ;
#328 = CARTESIAN_POINT ( 'NONE',  ( -3.000000000000000000, 0.000000000000000000, 0.000000000000000000 ) ) ;
#329 = LINE ( 'NONE', #165, #331 ) ;
#330 = ADVANCED_BREP_SHAPE_REPRESENTATION ( 'QM-AAQWP-20-650-1100-M', ( #169, #280 ), #271 ) ;
#331 = VECTOR ( 'NONE', #40, 1000.000000000000000 ) ;
#332 = ORIENTED_EDGE ( 'NONE', *, *, #290, .F. ) ;
#333 = CC_DESIGN_APPROVAL ( #49, ( #219 ) ) ;
#334 = LINE ( 'NONE', #289, #248 ) ;
#335 = DIRECTION ( 'NONE',  ( 0.000000000000000000, 0.000000000000000000, -1.000000000000000000 ) ) ;
ENDSEC;
END-ISO-10303-21;
